Download Music Software | Guitars - Guitar News Weekly | MP3 Software | Find Musicians
Musician Tutorials
Slide Exercise 2
on Tuesday 20 June 2006
by Dirk Hagemann author list print the content item {PDF=create pdf file of the content item^plugin:content.40}
in Guitar
comments: 0
hits: 2417
not rated -

This is the successor of the first Slide Exercise Lesson I wrote.
This time we throw some more notes into our 12-Bar-Blues in Open-G.

Again, this exercise is in Open-G!
To get from standard tuning to open G tune both E strings down a whole
step to D and the A string a whole step down to G. Thats it!


Standard Tuning E A D G B e


Open G Tuning   D G D G B D


Okay, let´s go to work! 


Slide Exercise 2 - Open G                             


Slide Guitar
                                                           

D||--12~---------10/-12~-10/-12~-|----10/-12~-10------------------|


B||--12----12~-------------------|------------10/-12/-10~---------|


G||--12--------------------------|------------------------12~-----|


D||------------------------------|----------------------------12~-|


G||------------------------------|--------------------------------|


D||------------------------------|--------------------------------|

                                                               

--12~---12~-------------12~-----|----------------------------------|


--12--------12~-----------------|--12~-12~-12~-12/-11~-11/-10~-10~-|


--12------------12~-------------|--12--12--12--12/-11--11/-10--10--|


--------------------12~---------|----------------------------------|


--------------------------------|----------------------------------|


--------------------------------|----------------------------------|
                                                                    


--5----------------|--------3~-------------|--12~-10/-12------------|


--5----------------|--5/-3~----3/-5~-------|--12--------------------|


--5~---------------|-----------------------|--12--------------------|


-------------------|-----------------------|------------------------|


-------------------|-----------------------|------------------------|


-------------------|-----------------------|------------------------|


                                                                   
--------------12/-10~-----------------|--7----------------7~-------|


----------12~---------10/-12/-10~-----|--7~---7~----7-----7--------|


--10/-12~-------------------------12~-|--7-------7~----7--7--------|


--------------------------------------|----------------------------|


--------------------------------------|----------------------------|


--------------------------------------|----------------------------|

                                                     

--5----3/-5~------------------|--12~---12------------|


--5----------3/-5~---5/-3~-5~-|--12------------------|


--5---------------------------|--12------------------|


------------------------------|----------------------|


------------------------------|----------------------|


------------------------------|----------------------|


Simple Turnaround                                


--12--12~-11~-11~-10~---------||


--12--12--11--11--10--5/-7----||


--12~-12--11--11--10--5/-7----||


----------------------5--7~---||


------------------------------||


------------------------------||




For more exercises and GuitarPro files for this lesson visit:
www.blueslessons.net


From the 12-Bar-Blues, the Shuffle Rythm and the Blues Turnarounds to
the Blues and Pentatonic Scale, to Lead Guitar techniques, Slide guitar
lessons and more. For each Lesson there are images or GuitarPro files
and midis to listen to. Each lesson can be downloaded as textfile.
PLUS: mp3 Blues Backing Tracks/Jam Tracks and Ebooks!


You must be logged in to make comments on this site - please log in, or if you are not registered click here to signup