Download Music Software | Guitars - Guitar News Weekly | MP3 Software | Find Musicians
Musician Tutorials
Lead Guitar Techniques for Beginners: Slides
on Tuesday 20 June 2006
by Dirk Hagemann author list print the content item {PDF=create pdf file of the content item^plugin:content.44}
in Guitar
comments: 0
hits: 3082
not rated -

Again, one of the most simple techniques. You should be able to learn
this real fast. Put your finger on a string, hit the note and slide to
another fret without interrupting the sound (see below). In tabfiles
slides are shown as "/"

Wide Slide:
You can even produce several notes if your pressure on the string is
big enough. Lay your finger on the 5th fret, hit the string and slide
to the 8th and then to the 10th fret without interrupting the sound.


    Slide Up       Slide Down       Wide Slide        


e|---------------|---------------|---------------|


B|---------------|---------------|---------------|


G|---------------|----75--------|----5/8/10-----|


D|----5/7--------|---------------|---------------|


A|---------------|---------------|---------------|


E|---------------|---------------|---------------|


The "Slide out of nowhere"

Sometimes you see a following tab. Here you hit the free string and then
slide into the note. In this example hit the empty D-string and slide
(maybe from the area of the 5th fret) to the 7th fret.


e|-------------|


B|-------------|


G|-------------|


D|--/7-or 0/7--|


A|-------------|


E|-------------|



Slide Exercise

Exercise 1 - Am pentatonic scale


E||--------------------------|--------8/-5/-8-----------|


B||--------------------------|--5/-8-----------8/-5-----|


G||--------------------7/-5--|-----------------------5/-|


D||--------------5/-7--------|--------------------------|


A||--------7/-5--------------|--------------------------|


E||--5/-8--------------------|--------------------------|







                            Exercise 2 - Slide over the fretboard                          


-------------------------|--|--------------------------|


-------------------------|--|--------------------------|


--7----------------------|--|--------------------5/-7--|


-----7/-5----------------|--|--------------5/-7--------|


-----------5/-7----------|--|-----3/-5/-7--------------|


-----------------8/-5~---|--|--5-----------------------|

                                                         


------------8--10/-12------|--12--10/-8------------------|


-----8/-10-----------------|-------------10--8-----------|


--9------------------------|--------------------9/-7--5--|


---------------------------|-----------------------------|


---------------------------|-----------------------------|


---------------------------|-----------------------------|

                   

------------------------||


------------------------||


------------------------||


--7/-5------------------||


--------7/-5/-3---------||


-----------------5------||



For more exercises and GuitarPro files for this lesson visit:
www.blueslessons.net


From the 12-Bar-Blues, the Shuffle Rythm and the Blues Turnarounds to
the Blues and Pentatonic Scale, to Lead Guitar techniques, Slide guitar
lessons and more. For each Lesson there are images or GuitarPro files
and midis to listen to. Each lesson can be downloaded as textfile.
PLUS: mp3 Blues Backing Tracks/Jam Tracks and Ebooks!


You must be logged in to make comments on this site - please log in, or if you are not registered click here to signup