Download Music Software | Guitars - Guitar News Weekly | MP3 Software | Find Musicians
Musician Tutorials
Hard Pentatonic Licks - In the key of A
on Tuesday 20 June 2006
by Dirk Hagemann author list print the content item {PDF=create pdf file of the content item^plugin:content.65}
in Guitar
comments: 0
hits: 4910
not rated -

This article is part of a 10 part series on the pentatonic scale.

Lick 1                                     


E||---------5----------------------------------|


B||--5--------8p-5---8p-5---5------5-----------|


G||----------------7------7---7p-5---7p-5---7h-|


D||---------------------------------------7----|


A||--------------------------------------------|


E||--------------------------------------------|





----------------------------------------|--------------------------|-------|


----------------------------------------|--------------------------|-------|


--5------5------------------------------|--------------------------|-------|


----7p-5---7p-5---7p-5------5-----------|--------------------------|-------|


----------------7------7p-5---7p-5------|--------------------------|-------|


-----------------------------------8p-5-|--8-5--5-L--3--5~---------|-------|


Lick 2                                      


-----------------------------------------5---|


--7h-----8p-7p-5--------------------5h-8---8-|


-----------------8p-7p-5---7---5h-7----------|


-------------------------7---7---------------|


---------------------------------------------|


---------------------------------------------|





-----8-----------------------------|-----------|


--10---10p-9p-8---------10~--------|-----------|


----------------9p-8h-9------------|-----------|


-----------------------------------|-----------|


-----------------------------------|-----------|


-----------------------------------|-----------|


Lick 3                                                                     


--8b-----5-----8b--5-----8b--5-----8b--5-----|---------5--8b--5--L~---------|


------------5---------5---------5---------5--|------5-----------------------|


---------------------------------------------|--7b--------------------------|


---------------------------------------------|------------------------------|


---------------------------------------------|------------------------------|


---------------------------------------------|------------------------------|


Lick 4                                       


-------|--5--------------------5------------8p-5---8h-|


-------|---------8p--5------5-----8p--5----------5----|


-------|----------------7b---------------7------------|


-------|----------------------------------------------|


-------|----------------------------------------------|


-------|----------------------------------------------|






--5---8p-5---8p-5--------------|-----------|


----5------5------5-8b~--------|-----------|


-------------------------------|-----------|


-------------------------------|-----------|


-------------------------------|-----------|


-------------------------------|-----------|


Lick 5 - Turnaround                                         


----------------------9--------8--------7-----------5--|-----|


-------------------------------------------------------|-----|


--9----------------------9--8-----8--7-----7--5--6-----|-----|


-------------------------------------------------------|-----|


-------------------------------------------------------|-----|


-------------------------------------------------------|-----|


Lick 6                                   


--8p-----5-8p-5--------5-8p-5------------||


----------------8p-5-8--------8p-5-8b----||


-----------------------------------------||


-----------------------------------------||


-----------------------------------------||


-----------------------------------------||


For more exercises and GuitarPro files for this lesson visit:
www.blueslessons.net


From the 12-Bar-Blues, the Shuffle Rythm and the Blues Turnarounds to
the Blues Scale, from Lead Guitar techniques to Slide guitar lessons
and much more. For each Lesson we have images, GuitarPro files and
midis to listen to. Or download all lesson & files as an ebook!
PLUS: mp3 Blues Backing Tracks/Jam Tracks and Ebooks!


You must be logged in to make comments on this site - please log in, or if you are not registered click here to signup